Giriş Yap
Şifreni mi unuttun?

Buried Alive (tab) Akoru - Suicide

Riff 1:


------------------------------------------
------------------------------------------
-----------2~-----------------------------
-----------3~-------------------------2~--
--------------------------------------4~--
-5-6-5-3-----0-0-0-0-3-3-3-3-1-3-1-0------

Riff 2:

G.1
--------------------------------------------------
--------------------------------------------------
-----------------------------------------------2~-
-------7-----5-----3---------------------------3~-
-----5---5-----4-----5---7^5---5^4---4^2-----1----
-5-6-------6-----5-----4-----6-----5-----3-1------

G.2
--------------------------------------------------
--------------------------------------------------
--------------------------------------------------
-2~~---------------------5~~---------3~~----------
-2~~---------------------5~~---------3~~----------
-0~~---------------------3~~---------1~~----------

G.2 (verse)
--------------------------------------------------
--------------------------------------------------
--------------------------------------------------
-2~~---------------------3~~---------6~~----------
-2~~---------------------3~~---------6~~----------
-0~~---------------------1~~---------4~~----------

G.1 (verse)
-------------0-3----------------------------------
---------2-5-----2-5-----2-5----------------------
-----3-6-------------3-6-----3-6-----3-6----------
-5-8-----------------------------5-8-----5-8------ ---------------------------------------------7-10-
--------------------------------------------------

Riff 3:

G.1, G.2
----------------------------------------
----------------------------------------
----------------------------------------
----------------------------------2~~---
-4~~-5~~--------------------------4~~---
-5~~-6~~--0--3-3--1-1--5-3-3--6-5-------

G.1 (verse)
----------------------------------------
----------------------------------------
----------------------------------------
-7~~-8~~--------------------------2~~---
-4~~-5~~--------------------------4~~---
----------0--3-3--1-1--5-3-3--6-5-------

G.1 (verse)
----------------------------------------
----------------------------------------
-6~~-7~~--------------------------------
-7~~-8~~--------------------------2~~---
----------------------------------4~~---
----------0--3-3--1-1--5-3-3--6-5-------

G.1, G.2
----------
----------
-6~~-7~~--
-7~~-8~~--
-4~~-5~~--
-5~~-6~~--

Riff 4:

----------------------------
----------------------------
---------------4^3-5^4-7~~--
-3-2-----1------------------
-3-2-3-0-1-2-1-2^1-3^2-5~~--
-----3-0---2-1--------------

Suicide Akorları

Yorumlar

Suicide

 şarkıcısının fotoğrafı

Akor Bilgileri

Hata rapor et
 
Arkadaşına Öner

Akorlar

Sanatçılar

Akor Ara

Arama

Sanatçı Ara

Arama